ISO-10303-21;
HEADER;
FILE_DESCRIPTION (( 'STEP AP214' ),
    '1' );
FILE_NAME ('GCC-411132.STEP',
    '2020-02-15T10:11:00',
    ( 'China' ),
    ( 'Microsoft' ),
    'SwSTEP 2.0',
    'SolidWorks 2018',
    '' );
FILE_SCHEMA (( 'AUTOMOTIVE_DESIGN' ));
ENDSEC;

DATA;
#1 = CARTESIAN_POINT ( 'NONE',  ( 0.0000000000000000000, 0.0000000000000000000, 0.2999999999999981570 ) ) ;
#2 = EDGE_CURVE ( 'NONE', #127, #160, #49, .T. ) ;
#3 = DIRECTION ( 'NONE',  ( -0.0000000000000000000, -0.0000000000000000000, 1.000000000000000000 ) ) ;
#4 =( NAMED_UNIT ( * ) PLANE_ANGLE_UNIT ( ) SI_UNIT ( $, .RADIAN. ) );
#5 =( LENGTH_UNIT ( ) NAMED_UNIT ( * ) SI_UNIT ( .MILLI., .METRE. ) );
#6 = ADVANCED_FACE ( 'NONE', ( #47 ), #172, .F. ) ;
#7 = AXIS2_PLACEMENT_3D ( 'NONE', #95, #185, #38 ) ;
#8 = ORIENTED_EDGE ( 'NONE', *, *, #64, .T. ) ;
#9 = ORIENTED_EDGE ( 'NONE', *, *, #145, .T. ) ;
#10 = EDGE_LOOP ( 'NONE', ( #190, #206 ) ) ;
#11 = EDGE_CURVE ( 'NONE', #85, #24, #78, .T. ) ;
#12 = PRESENTATION_STYLE_ASSIGNMENT (( #165 ) ) ;
#13 = EDGE_CURVE ( 'NONE', #85, #23, #56, .T. ) ;
#14 = CONICAL_SURFACE ( 'NONE', #228, 12.39999999999999325, 0.7853981633974511656 ) ;
#15 = ORIENTED_EDGE ( 'NONE', *, *, #2, .F. ) ;
#16 = CARTESIAN_POINT ( 'NONE',  ( 12.69999999999999929, 0.0000000000000000000, 0.2999999999999981570 ) ) ;
#17 = DIRECTION ( 'NONE',  ( -1.000000000000000000, 0.0000000000000000000, 0.0000000000000000000 ) ) ;
#18 = UNCERTAINTY_MEASURE_WITH_UNIT (LENGTH_MEASURE( 1.000000000000000082E-05 ), #126, 'distance_accuracy_value', 'NONE');
#19 = DIRECTION ( 'NONE',  ( -1.000000000000000000, 0.0000000000000000000, 0.0000000000000000000 ) ) ;
#20 = VECTOR ( 'NONE', #216, 1000.000000000000000 ) ;
#21 = CARTESIAN_POINT ( 'NONE',  ( -12.40000000000000036, 1.536931732929928200E-15, 0.0000000000000000000 ) ) ;
#22 = ADVANCED_FACE ( 'NONE', ( #198 ), #44, .T. ) ;
#23 = VERTEX_POINT ( 'NONE', #214 ) ;
#24 = VERTEX_POINT ( 'NONE', #199 ) ;
#25 = SURFACE_SIDE_STYLE ('',( #71 ) ) ;
#26 = APPLICATION_PROTOCOL_DEFINITION ( 'draft international standard', 'automotive_design', 1998, #143 ) ;
#27 = CARTESIAN_POINT ( 'NONE',  ( 12.40000000000000036, 0.0000000000000000000, 0.0000000000000000000 ) ) ;
#28 = LINE ( 'NONE', #156, #20 ) ;
#29 = COLOUR_RGB ( '',0.9411764705882352811, 0.9607843137254902244, 0.9686274509803921573 ) ;
#30 = ORIENTED_EDGE ( 'NONE', *, *, #2, .T. ) ;
#31 = UNCERTAINTY_MEASURE_WITH_UNIT (LENGTH_MEASURE( 1.000000000000000082E-05 ), #5, 'distance_accuracy_value', 'NONE');
#32 = AXIS2_PLACEMENT_3D ( 'NONE', #80, #98, #96 ) ;
#33 = EDGE_LOOP ( 'NONE', ( #147, #79, #181, #54 ) ) ;
#34 = CARTESIAN_POINT ( 'NONE',  ( -12.69999999999999929, 0.0000000000000000000, 3.000000000000000000 ) ) ;
#35 = ORIENTED_EDGE ( 'NONE', *, *, #234, .F. ) ;
#36 = CARTESIAN_POINT ( 'NONE',  ( 0.0000000000000000000, 0.0000000000000000000, 0.0000000000000000000 ) ) ;
#37 = CARTESIAN_POINT ( 'NONE',  ( 12.39999999999999325, 1.518562030942716784E-15, 3.000000000000000000 ) ) ;
#38 = DIRECTION ( 'NONE',  ( 1.000000000000000000, 0.0000000000000000000, 0.0000000000000000000 ) ) ;
#39 = CLOSED_SHELL ( 'NONE', ( #22, #150, #177, #119, #168, #6, #108, #75 ) ) ;
#40 = CYLINDRICAL_SURFACE ( 'NONE', #211, 12.69999999999999929 ) ;
#41 = CARTESIAN_POINT ( 'NONE',  ( 0.0000000000000000000, 0.0000000000000000000, 3.000000000000000000 ) ) ;
#42 = CARTESIAN_POINT ( 'NONE',  ( -12.69999999999999929, 0.0000000000000000000, 2.699999999999994849 ) ) ;
#43 = PLANE ( 'NONE',  #92 ) ;
#44 = CONICAL_SURFACE ( 'NONE', #55, 12.39999999999999325, 0.7853981633974511656 ) ;
#45 = PRODUCT_DEFINITION_CONTEXT ( 'detailed design', #210, 'design' ) ;
#46 = FILL_AREA_STYLE_COLOUR ( '', #29 ) ;
#47 = FACE_OUTER_BOUND ( 'NONE', #221, .T. ) ;
#48 = FILL_AREA_STYLE ('',( #46 ) ) ;
#49 = LINE ( 'NONE', #34, #229 ) ;
#50 = SURFACE_STYLE_FILL_AREA ( #48 ) ;
#51 = EDGE_LOOP ( 'NONE', ( #224, #122, #135, #15 ) ) ;
#52 = APPLICATION_PROTOCOL_DEFINITION ( 'draft international standard', 'automotive_design', 1998, #210 ) ;
#53 = PRODUCT_RELATED_PRODUCT_CATEGORY ( 'part', '', ( #208 ) ) ;
#54 = ORIENTED_EDGE ( 'NONE', *, *, #90, .F. ) ;
#55 = AXIS2_PLACEMENT_3D ( 'NONE', #82, #153, #17 ) ;
#56 = LINE ( 'NONE', #37, #180 ) ;
#57 = ORIENTED_EDGE ( 'NONE', *, *, #77, .F. ) ;
#58 = DIRECTION ( 'NONE',  ( -0.0000000000000000000, -0.0000000000000000000, -1.000000000000000000 ) ) ;
#59 = CARTESIAN_POINT ( 'NONE',  ( 0.0000000000000000000, 0.0000000000000000000, 3.000000000000000000 ) ) ;
#60 = CYLINDRICAL_SURFACE ( 'NONE', #151, 12.69999999999999929 ) ;
#61 = ORIENTED_EDGE ( 'NONE', *, *, #145, .F. ) ;
#62 = ORIENTED_EDGE ( 'NONE', *, *, #13, .T. ) ;
#63 =( LENGTH_UNIT ( ) NAMED_UNIT ( * ) SI_UNIT ( .MILLI., .METRE. ) );
#64 = EDGE_CURVE ( 'NONE', #160, #207, #109, .T. ) ;
#65 = CARTESIAN_POINT ( 'NONE',  ( 0.0000000000000000000, 0.0000000000000000000, 3.000000000000000000 ) ) ;
#66 = CARTESIAN_POINT ( 'NONE',  ( 0.0000000000000000000, 0.0000000000000000000, 3.000000000000000000 ) ) ;
#67 = ORIENTED_EDGE ( 'NONE', *, *, #11, .F. ) ;
#68 = CARTESIAN_POINT ( 'NONE',  ( -12.69999999999999929, 0.0000000000000000000, 0.2999999999999981570 ) ) ;
#69 = UNCERTAINTY_MEASURE_WITH_UNIT (LENGTH_MEASURE( 1.000000000000000082E-05 ), #63, 'distance_accuracy_value', 'NONE');
#70 =( GEOMETRIC_REPRESENTATION_CONTEXT ( 3 ) GLOBAL_UNCERTAINTY_ASSIGNED_CONTEXT ( ( #69 ) ) GLOBAL_UNIT_ASSIGNED_CONTEXT ( ( #63, #4, #203 ) ) REPRESENTATION_CONTEXT ( 'NONE', 'WORKASPACE' ) );
#71 = SURFACE_STYLE_FILL_AREA ( #161 ) ;
#72 = PRODUCT_CONTEXT ( 'NONE', #143, 'mechanical' ) ;
#73 = AXIS2_PLACEMENT_3D ( 'NONE', #1, #101, #141 ) ;
#74 = PRODUCT_DEFINITION ( 'Î´Öª', '', #195, #45 ) ;
#75 = ADVANCED_FACE ( 'NONE', ( #163 ), #14, .T. ) ;
#76 = FACE_OUTER_BOUND ( 'NONE', #212, .T. ) ;
#77 = EDGE_CURVE ( 'NONE', #127, #23, #105, .T. ) ;
#78 = CIRCLE ( 'NONE', #158, 12.39999999999999325 ) ;
#79 = ORIENTED_EDGE ( 'NONE', *, *, #137, .F. ) ;
#80 = CARTESIAN_POINT ( 'NONE',  ( 0.0000000000000000000, 0.0000000000000000000, 0.2999999999999981570 ) ) ;
#81 = CIRCLE ( 'NONE', #73, 12.69999999999999929 ) ;
#82 = CARTESIAN_POINT ( 'NONE',  ( 0.0000000000000000000, 0.0000000000000000000, 3.000000000000000000 ) ) ;
#83 = DIRECTION ( 'NONE',  ( -0.7071067811865495711, 0.0000000000000000000, -0.7071067811865454633 ) ) ;
#84 = FACE_OUTER_BOUND ( 'NONE', #10, .T. ) ;
#85 = VERTEX_POINT ( 'NONE', #159 ) ;
#86 = DIRECTION ( 'NONE',  ( -0.0000000000000000000, -0.0000000000000000000, -1.000000000000000000 ) ) ;
#87 = AXIS2_PLACEMENT_3D ( 'NONE', #88, #3, #142 ) ;
#88 = CARTESIAN_POINT ( 'NONE',  ( 0.0000000000000000000, 0.0000000000000000000, 0.2999999999999981570 ) ) ;
#89 = VECTOR ( 'NONE', #83, 1000.000000000000000 ) ;
#90 = EDGE_CURVE ( 'NONE', #23, #127, #146, .T. ) ;
#91 = EDGE_LOOP ( 'NONE', ( #67, #62, #57, #232 ) ) ;
#92 = AXIS2_PLACEMENT_3D ( 'NONE', #66, #191, #178 ) ;
#93 = CIRCLE ( 'NONE', #104, 12.40000000000000036 ) ;
#94 = AXIS2_PLACEMENT_3D ( 'NONE', #59, #233, #174 ) ;
#95 = CARTESIAN_POINT ( 'NONE',  ( 0.0000000000000000000, 0.0000000000000000000, 2.699999999999994849 ) ) ;
#96 = DIRECTION ( 'NONE',  ( 1.000000000000000000, 0.0000000000000000000, 0.0000000000000000000 ) ) ;
#97 =( GEOMETRIC_REPRESENTATION_CONTEXT ( 3 ) GLOBAL_UNCERTAINTY_ASSIGNED_CONTEXT ( ( #18 ) ) GLOBAL_UNIT_ASSIGNED_CONTEXT ( ( #126, #194, #107 ) ) REPRESENTATION_CONTEXT ( 'NONE', 'WORKASPACE' ) );
#98 = DIRECTION ( 'NONE',  ( -0.0000000000000000000, -0.0000000000000000000, 1.000000000000000000 ) ) ;
#99 = AXIS2_PLACEMENT_3D ( 'NONE', #138, #213, #231 ) ;
#100 = DIRECTION ( 'NONE',  ( -0.0000000000000000000, -0.0000000000000000000, -1.000000000000000000 ) ) ;
#101 = DIRECTION ( 'NONE',  ( -0.0000000000000000000, -0.0000000000000000000, 1.000000000000000000 ) ) ;
#102 = CARTESIAN_POINT ( 'NONE',  ( 0.0000000000000000000, 0.0000000000000000000, 0.0000000000000000000 ) ) ;
#103 = ORIENTED_EDGE ( 'NONE', *, *, #64, .F. ) ;
#104 = AXIS2_PLACEMENT_3D ( 'NONE', #200, #184, #175 ) ;
#105 = CIRCLE ( 'NONE', #111, 12.69999999999999929 ) ;
#106 = VERTEX_POINT ( 'NONE', #21 ) ;
#107 =( NAMED_UNIT ( * ) SI_UNIT ( $, .STERADIAN. ) SOLID_ANGLE_UNIT ( ) );
#108 = ADVANCED_FACE ( 'NONE', ( #120 ), #170, .T. ) ;
#109 = CIRCLE ( 'NONE', #99, 12.69999999999999929 ) ;
#110 = SHAPE_DEFINITION_REPRESENTATION ( #237, #236 ) ;
#111 = AXIS2_PLACEMENT_3D ( 'NONE', #136, #154, #157 ) ;
#112 = ORIENTED_EDGE ( 'NONE', *, *, #139, .T. ) ;
#113 = CARTESIAN_POINT ( 'NONE',  ( 0.0000000000000000000, 0.0000000000000000000, 3.000000000000000000 ) ) ;
#114 = DIRECTION ( 'NONE',  ( 1.000000000000000000, 0.0000000000000000000, 0.0000000000000000000 ) ) ;
#115 = SURFACE_SIDE_STYLE ('',( #50 ) ) ;
#116 = DIRECTION ( 'NONE',  ( 0.0000000000000000000, 0.0000000000000000000, 1.000000000000000000 ) ) ;
#117 = PRESENTATION_LAYER_ASSIGNMENT (  '', '', ( #205 ) ) ;
#118 = DIRECTION ( 'NONE',  ( 1.000000000000000000, 0.0000000000000000000, -0.0000000000000000000 ) ) ;
#119 = ADVANCED_FACE ( 'NONE', ( #196 ), #60, .T. ) ;
#120 = FACE_OUTER_BOUND ( 'NONE', #186, .T. ) ;
#121 = STYLED_ITEM ( 'NONE', ( #12 ), #152 ) ;
#122 = ORIENTED_EDGE ( 'NONE', *, *, #234, .T. ) ;
#123 = CARTESIAN_POINT ( 'NONE',  ( -12.39999999999999325, 0.0000000000000000000, 3.000000000000000000 ) ) ;
#124 =( NAMED_UNIT ( * ) SI_UNIT ( $, .STERADIAN. ) SOLID_ANGLE_UNIT ( ) );
#125 = AXIS2_PLACEMENT_3D ( 'NONE', #240, #128, #192 ) ;
#126 =( LENGTH_UNIT ( ) NAMED_UNIT ( * ) SI_UNIT ( .MILLI., .METRE. ) );
#127 = VERTEX_POINT ( 'NONE', #42 ) ;
#128 = DIRECTION ( 'NONE',  ( 0.0000000000000000000, 0.0000000000000000000, 1.000000000000000000 ) ) ;
#129 = EDGE_CURVE ( 'NONE', #106, #226, #93, .T. ) ;
#130 = LINE ( 'NONE', #166, #215 ) ;
#131 = ORIENTED_EDGE ( 'NONE', *, *, #139, .F. ) ;
#132 = CIRCLE ( 'NONE', #169, 12.40000000000000036 ) ;
#133 = EDGE_CURVE ( 'NONE', #106, #160, #28, .T. ) ;
#134 = VECTOR ( 'NONE', #173, 1000.000000000000000 ) ;
#135 = ORIENTED_EDGE ( 'NONE', *, *, #149, .T. ) ;
#136 = CARTESIAN_POINT ( 'NONE',  ( 0.0000000000000000000, 0.0000000000000000000, 2.699999999999994849 ) ) ;
#137 = EDGE_CURVE ( 'NONE', #24, #85, #223, .T. ) ;
#138 = CARTESIAN_POINT ( 'NONE',  ( 0.0000000000000000000, 0.0000000000000000000, 0.2999999999999981570 ) ) ;
#139 = EDGE_CURVE ( 'NONE', #226, #207, #179, .T. ) ;
#140 = EDGE_LOOP ( 'NONE', ( #35, #148, #30, #8 ) ) ;
#141 = DIRECTION ( 'NONE',  ( 1.000000000000000000, 0.0000000000000000000, 0.0000000000000000000 ) ) ;
#142 = DIRECTION ( 'NONE',  ( 1.000000000000000000, 0.0000000000000000000, 0.0000000000000000000 ) ) ;
#143 = APPLICATION_CONTEXT ( 'automotive_design' ) ;
#144 = DIRECTION ( 'NONE',  ( -1.000000000000000000, 0.0000000000000000000, 0.0000000000000000000 ) ) ;
#145 = EDGE_CURVE ( 'NONE', #226, #106, #132, .T. ) ;
#146 = CIRCLE ( 'NONE', #7, 12.69999999999999929 ) ;
#147 = ORIENTED_EDGE ( 'NONE', *, *, #13, .F. ) ;
#148 = ORIENTED_EDGE ( 'NONE', *, *, #90, .T. ) ;
#149 = EDGE_CURVE ( 'NONE', #207, #160, #81, .T. ) ;
#150 = ADVANCED_FACE ( 'NONE', ( #76 ), #171, .T. ) ;
#151 = AXIS2_PLACEMENT_3D ( 'NONE', #41, #188, #235 ) ;
#152 = MANIFOLD_SOLID_BREP ( 'µ¹½Ç1', #39 ) ;
#153 = DIRECTION ( 'NONE',  ( 0.0000000000000000000, 0.0000000000000000000, -1.000000000000000000 ) ) ;
#154 = DIRECTION ( 'NONE',  ( 0.0000000000000000000, 0.0000000000000000000, -1.000000000000000000 ) ) ;
#155 = SURFACE_STYLE_USAGE ( .BOTH. , #115 ) ;
#156 = CARTESIAN_POINT ( 'NONE',  ( -12.69999999999999929, 1.555301434917138433E-15, 0.2999999999999981570 ) ) ;
#157 = DIRECTION ( 'NONE',  ( 1.000000000000000000, 0.0000000000000000000, 0.0000000000000000000 ) ) ;
#158 = AXIS2_PLACEMENT_3D ( 'NONE', #238, #116, #114 ) ;
#159 = CARTESIAN_POINT ( 'NONE',  ( 12.39999999999999325, 1.536931732929927411E-15, 3.000000000000000000 ) ) ;
#160 = VERTEX_POINT ( 'NONE', #68 ) ;
#161 = FILL_AREA_STYLE ('',( #162 ) ) ;
#162 = FILL_AREA_STYLE_COLOUR ( '', #239 ) ;
#163 = FACE_OUTER_BOUND ( 'NONE', #33, .T. ) ;
#164 = ORIENTED_EDGE ( 'NONE', *, *, #129, .F. ) ;
#165 = SURFACE_STYLE_USAGE ( .BOTH. , #25 ) ;
#166 = CARTESIAN_POINT ( 'NONE',  ( 12.69999999999999929, 1.555301434917138433E-15, 3.000000000000000000 ) ) ;
#167 = AXIS2_PLACEMENT_3D ( 'NONE', #36, #227, #118 ) ;
#168 = ADVANCED_FACE ( 'NONE', ( #84 ), #43, .T. ) ;
#169 = AXIS2_PLACEMENT_3D ( 'NONE', #102, #204, #218 ) ;
#170 = CONICAL_SURFACE ( 'NONE', #32, 12.69999999999999929, 0.7853981633974511656 ) ;
#171 = CONICAL_SURFACE ( 'NONE', #87, 12.69999999999999929, 0.7853981633974511656 ) ;
#172 = PLANE ( 'NONE',  #167 ) ;
#173 = DIRECTION ( 'NONE',  ( 0.7071067811865495711, 0.0000000000000000000, 0.7071067811865454633 ) ) ;
#174 = DIRECTION ( 'NONE',  ( 1.000000000000000000, 0.0000000000000000000, 0.0000000000000000000 ) ) ;
#175 = DIRECTION ( 'NONE',  ( 1.000000000000000000, 0.0000000000000000000, 0.0000000000000000000 ) ) ;
#176 =( NAMED_UNIT ( * ) PLANE_ANGLE_UNIT ( ) SI_UNIT ( $, .RADIAN. ) );
#177 = ADVANCED_FACE ( 'NONE', ( #209 ), #40, .T. ) ;
#178 = DIRECTION ( 'NONE',  ( 1.000000000000000000, 0.0000000000000000000, -0.0000000000000000000 ) ) ;
#179 = LINE ( 'NONE', #16, #134 ) ;
#180 = VECTOR ( 'NONE', #201, 1000.000000000000000 ) ;
#181 = ORIENTED_EDGE ( 'NONE', *, *, #222, .T. ) ;
#182 = LINE ( 'NONE', #123, #89 ) ;
#183 = PRESENTATION_LAYER_ASSIGNMENT (  '', '', ( #121 ) ) ;
#184 = DIRECTION ( 'NONE',  ( -0.0000000000000000000, -0.0000000000000000000, -1.000000000000000000 ) ) ;
#185 = DIRECTION ( 'NONE',  ( 0.0000000000000000000, 0.0000000000000000000, -1.000000000000000000 ) ) ;
#186 = EDGE_LOOP ( 'NONE', ( #230, #61, #112, #103 ) ) ;
#187 = DIRECTION ( 'NONE',  ( 0.0000000000000000000, 0.0000000000000000000, -1.000000000000000000 ) ) ;
#188 = DIRECTION ( 'NONE',  ( -0.0000000000000000000, -0.0000000000000000000, -1.000000000000000000 ) ) ;
#189 = PRESENTATION_STYLE_ASSIGNMENT (( #155 ) ) ;
#190 = ORIENTED_EDGE ( 'NONE', *, *, #137, .T. ) ;
#191 = DIRECTION ( 'NONE',  ( 0.0000000000000000000, 0.0000000000000000000, 1.000000000000000000 ) ) ;
#192 = DIRECTION ( 'NONE',  ( 1.000000000000000000, 0.0000000000000000000, 0.0000000000000000000 ) ) ;
#193 = MECHANICAL_DESIGN_GEOMETRIC_PRESENTATION_REPRESENTATION (  '', ( #121 ), #217 ) ;
#194 =( NAMED_UNIT ( * ) PLANE_ANGLE_UNIT ( ) SI_UNIT ( $, .RADIAN. ) );
#195 = PRODUCT_DEFINITION_FORMATION_WITH_SPECIFIED_SOURCE ( 'ÈÎºÎ', '', #208, .NOT_KNOWN. ) ;
#196 = FACE_OUTER_BOUND ( 'NONE', #140, .T. ) ;
#197 = ORIENTED_EDGE ( 'NONE', *, *, #129, .T. ) ;
#198 = FACE_OUTER_BOUND ( 'NONE', #91, .T. ) ;
#199 = CARTESIAN_POINT ( 'NONE',  ( -12.39999999999999325, 0.0000000000000000000, 3.000000000000000000 ) ) ;
#200 = CARTESIAN_POINT ( 'NONE',  ( 0.0000000000000000000, 0.0000000000000000000, 0.0000000000000000000 ) ) ;
#201 = DIRECTION ( 'NONE',  ( 0.7071067811865495711, 8.659560562354956277E-17, -0.7071067811865454633 ) ) ;
#202 = ORIENTED_EDGE ( 'NONE', *, *, #149, .F. ) ;
#203 =( NAMED_UNIT ( * ) SI_UNIT ( $, .STERADIAN. ) SOLID_ANGLE_UNIT ( ) );
#204 = DIRECTION ( 'NONE',  ( -0.0000000000000000000, -0.0000000000000000000, -1.000000000000000000 ) ) ;
#205 = STYLED_ITEM ( 'NONE', ( #189 ), #236 ) ;
#206 = ORIENTED_EDGE ( 'NONE', *, *, #11, .T. ) ;
#207 = VERTEX_POINT ( 'NONE', #220 ) ;
#208 = PRODUCT ( 'GCC-411132', 'GCC-411132', '', ( #72 ) ) ;
#209 = FACE_OUTER_BOUND ( 'NONE', #51, .T. ) ;
#210 = APPLICATION_CONTEXT ( 'automotive_design' ) ;
#211 = AXIS2_PLACEMENT_3D ( 'NONE', #65, #100, #144 ) ;
#212 = EDGE_LOOP ( 'NONE', ( #164, #219, #202, #131 ) ) ;
#213 = DIRECTION ( 'NONE',  ( -0.0000000000000000000, -0.0000000000000000000, 1.000000000000000000 ) ) ;
#214 = CARTESIAN_POINT ( 'NONE',  ( 12.69999999999999929, 1.555301434917138433E-15, 2.699999999999994849 ) ) ;
#215 = VECTOR ( 'NONE', #86, 1000.000000000000000 ) ;
#216 = DIRECTION ( 'NONE',  ( -0.7071067811865495711, 8.659560562354957510E-17, 0.7071067811865454633 ) ) ;
#217 =( GEOMETRIC_REPRESENTATION_CONTEXT ( 3 ) GLOBAL_UNCERTAINTY_ASSIGNED_CONTEXT ( ( #31 ) ) GLOBAL_UNIT_ASSIGNED_CONTEXT ( ( #5, #176, #124 ) ) REPRESENTATION_CONTEXT ( 'NONE', 'WORKASPACE' ) );
#218 = DIRECTION ( 'NONE',  ( 1.000000000000000000, 0.0000000000000000000, 0.0000000000000000000 ) ) ;
#219 = ORIENTED_EDGE ( 'NONE', *, *, #133, .T. ) ;
#220 = CARTESIAN_POINT ( 'NONE',  ( 12.69999999999999929, 1.555301434917138433E-15, 0.2999999999999981570 ) ) ;
#221 = EDGE_LOOP ( 'NONE', ( #9, #197 ) ) ;
#222 = EDGE_CURVE ( 'NONE', #24, #127, #182, .T. ) ;
#223 = CIRCLE ( 'NONE', #94, 12.39999999999999325 ) ;
#224 = ORIENTED_EDGE ( 'NONE', *, *, #77, .T. ) ;
#225 = MECHANICAL_DESIGN_GEOMETRIC_PRESENTATION_REPRESENTATION (  '', ( #205 ), #97 ) ;
#226 = VERTEX_POINT ( 'NONE', #27 ) ;
#227 = DIRECTION ( 'NONE',  ( 0.0000000000000000000, 0.0000000000000000000, 1.000000000000000000 ) ) ;
#228 = AXIS2_PLACEMENT_3D ( 'NONE', #113, #187, #19 ) ;
#229 = VECTOR ( 'NONE', #58, 1000.000000000000000 ) ;
#230 = ORIENTED_EDGE ( 'NONE', *, *, #133, .F. ) ;
#231 = DIRECTION ( 'NONE',  ( 1.000000000000000000, 0.0000000000000000000, 0.0000000000000000000 ) ) ;
#232 = ORIENTED_EDGE ( 'NONE', *, *, #222, .F. ) ;
#233 = DIRECTION ( 'NONE',  ( 0.0000000000000000000, 0.0000000000000000000, 1.000000000000000000 ) ) ;
#234 = EDGE_CURVE ( 'NONE', #23, #207, #130, .T. ) ;
#235 = DIRECTION ( 'NONE',  ( -1.000000000000000000, 0.0000000000000000000, 0.0000000000000000000 ) ) ;
#236 = ADVANCED_BREP_SHAPE_REPRESENTATION ( 'GCC-411132', ( #152, #125 ), #70 ) ;
#237 = PRODUCT_DEFINITION_SHAPE ( 'NONE', 'NONE',  #74 ) ;
#238 = CARTESIAN_POINT ( 'NONE',  ( 0.0000000000000000000, 0.0000000000000000000, 3.000000000000000000 ) ) ;
#239 = COLOUR_RGB ( '',0.9411764705882352811, 0.9607843137254902244, 0.9686274509803921573 ) ;
#240 = CARTESIAN_POINT ( 'NONE',  ( 0.0000000000000000000, 0.0000000000000000000, 0.0000000000000000000 ) ) ;
ENDSEC;
END-ISO-10303-21;
